Lirik Lagu Terbaru, Song Lyrics Update

Linkin Park - What ive done

by oky , at 05.37
INTRO RIFF:

(played on piano)

(my arangement for guitar)

e---10---10-11-10---10-|

B-8----8----------8----|

G----------------------|

D----------------------|

A----------------------|

E----------------------|


(repeat 2x)
(Follow the tab below from left to right, then proceed below.)
Gm Bb

e---10---10-11-10---10- | ---10---10-11-10---10-|

B-8----8----------8---- | -8----8----------8----|

G---------------------- | ----------------------|

D---------------------- | -8--------------------|

A-10------------------- | ----------------------|

E---------------------- | ----------------------|


F Cm

e---10---10-11-10---10- | ---10---10-11-10---10-|

B-8----8----------8---- | -8----8----------8----|

G---------------------- | ----------------------|

D---------------------- | ----------------------|

A-8-------------------- | ----------------------|

E---------------------- | -8--------------------|


INTRO:

Gm - Bb - F - Cm (4x)
INTERLUDE:

Gm
VERSE I:

Gm

In this farewell

Bb

There's no blood

F Cm

There's no alibi

Gm

'Cause I've drawn regret

Bb

From the truth

F Cm

Of a thousand lies
REFRAIN:

Eb F

So let mercy come and wash away
CHORUS I:

Gm

What I've done

Bb F

I'll face myself

Cm Gm

To cross out what I've become

Bb F

Erase myself and let go of

Cm Gm

What I've done
VERSE II:

Bb

Put to rest

F Cm

What you thought of me

Gm

While I clean this slate

Bb

With the hands

F Cm

Of uncertainty
(Repeat refrain)
CHORUS II:

Gm

What I've done

Bb F

I'll face myself

Cm Gm

To cross out what I've become

Bb F

Erase myself and let go of

Cm Dm Eb F Gm

What I've done
INTERLUDE:

Gm - Bb - F - Cm

Gm - Bb - F - Cm - Dm


BRIDGE:

Eb F Gm

For what I've done

Bb F

I'll start again

Cm Gm

And whatever thing may come

Bb F

Today this ends I'm forgiving

Cm Gm

What I've done
CHORUS III:

Bb F

I'll face myself

Cm Gm

To cross out what I've become

Bb F

Erase myself and let go of

Cm Gm Bb F

What I've done

Cm Gm Bb F

What I've done

Cm Gm
Comment disabled
Copyright ©2015 StandLyrics
Theme designed by Damzaky Powered by Blogger